ISO-10303-21;
HEADER;
FILE_DESCRIPTION (( 'STEP AP203' ),
    '1' );
FILE_NAME ('am-1571 0.375 OD x 0.257 ID x 1.865 Long Aluminum Spacer for Box Tube.STEP',
    '2020-08-03T13:56:34',
    ( '' ),
    ( '' ),
    'SwSTEP 2.0',
    'SolidWorks 2019',
    '' );
FILE_SCHEMA (( 'CONFIG_CONTROL_DESIGN' ));
ENDSEC;

DATA;
#1 = EDGE_LOOP ( 'NONE', ( #79, #36, #91, #289 ) ) ;
#2 = CARTESIAN_POINT ( 'NONE',  ( 1.696135816819079820E-17, 0.0000000000000000000, 0.1384999999999996512 ) ) ;
#3 = EDGE_CURVE ( 'NONE', #199, #87, #127, .T. ) ;
#4 = DIRECTION ( 'NONE',  ( 0.0000000000000000000, 1.000000000000000000, 0.0000000000000000000 ) ) ;
#5 = DIRECTION ( 'NONE',  ( 0.0000000000000000000, 0.0000000000000000000, 1.000000000000000000 ) ) ;
#6 = CC_DESIGN_APPROVAL ( #260, ( #108 ) ) ;
#7 = DIRECTION ( 'NONE',  ( 0.0000000000000000000, 0.0000000000000000000, 1.000000000000000000 ) ) ;
#8 = AXIS2_PLACEMENT_3D ( 'NONE', #29, #133, #248 ) ;
#9 = ORIENTED_EDGE ( 'NONE', *, *, #11, .F. ) ;
#10 = ORIENTED_EDGE ( 'NONE', *, *, #222, .F. ) ;
#11 = EDGE_CURVE ( 'NONE', #286, #158, #230, .T. ) ;
#12 = AXIS2_PLACEMENT_3D ( 'NONE', #145, #239, #349 ) ;
#13 = ORIENTED_EDGE ( 'NONE', *, *, #173, .F. ) ;
#14 = DIRECTION ( 'NONE',  ( 0.0000000000000000000, 1.000000000000000000, 0.0000000000000000000 ) ) ;
#15 = EDGE_CURVE ( 'NONE', #39, #341, #112, .T. ) ;
#16 = APPROVAL_STATUS ( 'not_yet_approved' ) ;
#17 = AXIS2_PLACEMENT_3D ( 'NONE', #135, #250, #5 ) ;
#18 = APPROVAL_STATUS ( 'not_yet_approved' ) ;
#19 = DATE_TIME_ROLE ( 'classification_date' ) ;
#20 = CARTESIAN_POINT ( 'NONE',  ( 0.0000000000000000000, 1.854999999999999982, -0.1285000000000000031 ) ) ;
#21 = APPROVAL_PERSON_ORGANIZATION ( #262, #271, #117 ) ;
#22 = DIRECTION ( 'NONE',  ( 0.0000000000000000000, -0.7071067811865469066, -0.7071067811865481278 ) ) ;
#23 = AXIS2_PLACEMENT_3D ( 'NONE', #187, #307, #54 ) ;
#24 = DIRECTION ( 'NONE',  ( 0.0000000000000000000, 0.0000000000000000000, 1.000000000000000000 ) ) ;
#25 = ADVANCED_FACE ( 'NONE', ( #160 ), #277, .F. ) ;
#26 = PLANE ( 'NONE',  #94 ) ;
#27 = ORIENTED_EDGE ( 'NONE', *, *, #15, .T. ) ;
#28 = CIRCLE ( 'NONE', #224, 0.1385000000000001508 ) ;
#29 = CARTESIAN_POINT ( 'NONE',  ( 0.0000000000000000000, 1.864999999999999991, 0.0000000000000000000 ) ) ;
#30 = CARTESIAN_POINT ( 'NONE',  ( 0.0000000000000000000, 1.864999999999999991, -0.1875000000000000278 ) ) ;
#31 = CARTESIAN_POINT ( 'NONE',  ( 0.0000000000000000000, 0.0000000000000000000, -0.1875000000000000278 ) ) ;
#32 = DIRECTION ( 'NONE',  ( 0.0000000000000000000, 0.7071067811865384689, 0.7071067811865565655 ) ) ;
#33 = VECTOR ( 'NONE', #85, 39.37007874015748143 ) ;
#34 = ORIENTED_EDGE ( 'NONE', *, *, #3, .T. ) ;
#35 = CC_DESIGN_PERSON_AND_ORGANIZATION_ASSIGNMENT ( #176, #323, ( #108 ) ) ;
#36 = ORIENTED_EDGE ( 'NONE', *, *, #3, .F. ) ;
#37 = ORIENTED_EDGE ( 'NONE', *, *, #121, .F. ) ;
#38 = AXIS2_PLACEMENT_3D ( 'NONE', #182, #89, #197 ) ;
#39 = VERTEX_POINT ( 'NONE', #2 ) ;
#40 = EDGE_CURVE ( 'NONE', #169, #158, #272, .T. ) ;
#41 = PERSON_AND_ORGANIZATION_ROLE ( 'design_owner' ) ;
#42 = DATE_AND_TIME ( #291, #270 ) ;
#43 = AXIS2_PLACEMENT_3D ( 'NONE', #249, #4, #107 ) ;
#44 = COORDINATED_UNIVERSAL_TIME_OFFSET ( 5, 0, .BEHIND. ) ;
#45 = CARTESIAN_POINT ( 'NONE',  ( 0.0000000000000000000, 1.854999999999999982, 0.0000000000000000000 ) ) ;
#46 = DIRECTION ( 'NONE',  ( 0.0000000000000000000, 0.0000000000000000000, 1.000000000000000000 ) ) ;
#47 = PRODUCT ( 'am-1571 0.375 OD x 0.257 ID x 1.865 Long Aluminum Spacer for Box Tube', 'am-1571 0.375 OD x 0.257 ID x 1.865 Long Aluminum Spacer for Box Tube', '', ( #203 ) ) ;
#48 = LOCAL_TIME ( 9, 56, 34.00000000000000000, #44 ) ;
#49 = EDGE_CURVE ( 'NONE', #158, #39, #82, .T. ) ;
#50 = CARTESIAN_POINT ( 'NONE',  ( 0.0000000000000000000, 1.864999999999999991, 0.1385000000000001508 ) ) ;
#51 = DIRECTION ( 'NONE',  ( 0.0000000000000000000, 0.0000000000000000000, -1.000000000000000000 ) ) ;
#52 = ORIENTED_EDGE ( 'NONE', *, *, #238, .T. ) ;
#53 = VECTOR ( 'NONE', #57, 39.37007874015748143 ) ;
#54 = DIRECTION ( 'NONE',  ( 0.0000000000000000000, 0.0000000000000000000, 1.000000000000000000 ) ) ;
#55 = LINE ( 'NONE', #162, #88 ) ;
#56 = CARTESIAN_POINT ( 'NONE',  ( 0.0000000000000000000, 1.854999999999999982, 0.0000000000000000000 ) ) ;
#57 = DIRECTION ( 'NONE',  ( -0.0000000000000000000, -1.000000000000000000, -0.0000000000000000000 ) ) ;
#58 = AXIS2_PLACEMENT_3D ( 'NONE', #84, #192, #126 ) ;
#59 = EDGE_CURVE ( 'NONE', #286, #283, #155, .T. ) ;
#60 = ORIENTED_EDGE ( 'NONE', *, *, #321, .T. ) ;
#61 = EDGE_LOOP ( 'NONE', ( #9, #314, #316, #165 ) ) ;
#62 = VERTEX_POINT ( 'NONE', #31 ) ;
#63 = ORIENTED_EDGE ( 'NONE', *, *, #266, .T. ) ;
#64 = CC_DESIGN_DATE_AND_TIME_ASSIGNMENT ( #42, #148, ( #198 ) ) ;
#65 = CC_DESIGN_APPROVAL ( #271, ( #198 ) ) ;
#66 = CLOSED_SHELL ( 'NONE', ( #306, #211, #147, #132, #157, #86, #331, #25, #281, #346 ) ) ;
#67 = PERSON_AND_ORGANIZATION_ROLE ( 'creator' ) ;
#68 = PERSON_AND_ORGANIZATION_ROLE ( 'creator' ) ;
#69 = SECURITY_CLASSIFICATION_LEVEL ( 'unclassified' ) ;
#70 = EDGE_CURVE ( 'NONE', #87, #199, #166, .T. ) ;
#71 = AXIS2_PLACEMENT_3D ( 'NONE', #45, #151, #268 ) ;
#72 = APPROVAL_DATE_TIME ( #324, #329 ) ;
#73 = DIRECTION ( 'NONE',  ( -0.0000000000000000000, -1.000000000000000000, -0.0000000000000000000 ) ) ;
#74 = DIRECTION ( 'NONE',  ( 0.0000000000000000000, 0.0000000000000000000, -1.000000000000000000 ) ) ;
#75 = FACE_OUTER_BOUND ( 'NONE', #186, .T. ) ;
#76 = CARTESIAN_POINT ( 'NONE',  ( 1.573671136904349084E-17, 1.854999999999999982, -0.1285000000000000031 ) ) ;
#77 = CIRCLE ( 'NONE', #212, 0.1385000000000001508 ) ;
#78 = CYLINDRICAL_SURFACE ( 'NONE', #251, 0.1285000000000000031 ) ;
#79 = ORIENTED_EDGE ( 'NONE', *, *, #229, .F. ) ;
#80 = DIRECTION ( 'NONE',  ( -0.0000000000000000000, -1.000000000000000000, -0.0000000000000000000 ) ) ;
#81 = DIRECTION ( 'NONE',  ( 0.0000000000000000000, -0.0000000000000000000, 1.000000000000000000 ) ) ;
#82 = LINE ( 'NONE', #190, #220 ) ;
#83 = DIRECTION ( 'NONE',  ( 0.0000000000000000000, 0.0000000000000000000, 1.000000000000000000 ) ) ;
#84 = CARTESIAN_POINT ( 'NONE',  ( 0.0000000000000000000, 0.0000000000000000000, 0.0000000000000000000 ) ) ;
#85 = DIRECTION ( 'NONE',  ( -0.0000000000000000000, -1.000000000000000000, -0.0000000000000000000 ) ) ;
#86 = ADVANCED_FACE ( 'NONE', ( #109, #218 ), #335, .F. ) ;
#87 = VERTEX_POINT ( 'NONE', #242 ) ;
#88 = VECTOR ( 'NONE', #278, 39.37007874015748143 ) ;
#89 = DIRECTION ( 'NONE',  ( -0.0000000000000000000, -1.000000000000000000, -0.0000000000000000000 ) ) ;
#90 = ORIENTED_EDGE ( 'NONE', *, *, #243, .T. ) ;
#91 = ORIENTED_EDGE ( 'NONE', *, *, #255, .T. ) ;
#92 = EDGE_LOOP ( 'NONE', ( #34, #339 ) ) ;
#93 = DIRECTION ( 'NONE',  ( 1.000000000000000000, 0.0000000000000000000, 0.0000000000000000000 ) ) ;
#94 = AXIS2_PLACEMENT_3D ( 'NONE', #129, #246, #81 ) ;
#95 = LOCAL_TIME ( 9, 56, 34.00000000000000000, #99 ) ;
#96 = DATE_AND_TIME ( #345, #217 ) ;
#97 = DATE_AND_TIME ( #347, #153 ) ;
#98 = EDGE_CURVE ( 'NONE', #247, #114, #28, .T. ) ;
#99 = COORDINATED_UNIVERSAL_TIME_OFFSET ( 5, 0, .BEHIND. ) ;
#100 = FACE_OUTER_BOUND ( 'NONE', #171, .T. ) ;
#101 = DIRECTION ( 'NONE',  ( -0.0000000000000000000, -1.000000000000000000, -0.0000000000000000000 ) ) ;
#102 = DIRECTION ( 'NONE',  ( -0.0000000000000000000, -1.000000000000000000, -0.0000000000000000000 ) ) ;
#103 = DIRECTION ( 'NONE',  ( -0.0000000000000000000, -1.000000000000000000, -0.0000000000000000000 ) ) ;
#104 = ORIENTED_EDGE ( 'NONE', *, *, #229, .T. ) ;
#105 = ORIENTED_EDGE ( 'NONE', *, *, #70, .F. ) ;
#106 = CARTESIAN_POINT ( 'NONE',  ( 0.0000000000000000000, 0.009999999999999620304, 0.0000000000000000000 ) ) ;
#107 = DIRECTION ( 'NONE',  ( 0.0000000000000000000, 0.0000000000000000000, 1.000000000000000000 ) ) ;
#108 = PRODUCT_DEFINITION_FORMATION_WITH_SPECIFIED_SOURCE ( 'ANY', '', #47, .NOT_KNOWN. ) ;
#109 = FACE_BOUND ( 'NONE', #131, .T. ) ;
#110 = CARTESIAN_POINT ( 'NONE',  ( 1.696135816819086291E-17, 1.864999999999999991, -0.1385000000000001508 ) ) ;
#111 = EDGE_CURVE ( 'NONE', #283, #247, #327, .T. ) ;
#112 = CIRCLE ( 'NONE', #23, 0.1384999999999996512 ) ;
#113 = VERTEX_POINT ( 'NONE', #302 ) ;
#114 = VERTEX_POINT ( 'NONE', #50 ) ;
#115 = ORIENTED_EDGE ( 'NONE', *, *, #59, .F. ) ;
#116 = DIRECTION ( 'NONE',  ( 0.0000000000000000000, 0.0000000000000000000, 1.000000000000000000 ) ) ;
#117 = APPROVAL_ROLE ( '' ) ;
#118 = AXIS2_PLACEMENT_3D ( 'NONE', #208, #325, #74 ) ;
#119 = PRODUCT_RELATED_PRODUCT_CATEGORY ( 'detail', '', ( #47 ) ) ;
#120 = APPROVAL_ROLE ( '' ) ;
#121 = EDGE_CURVE ( 'NONE', #113, #62, #195, .T. ) ;
#122 = PERSON_AND_ORGANIZATION ( #299, #172 ) ;
#123 = CARTESIAN_POINT ( 'NONE',  ( 1.573671136904349084E-17, 1.854999999999999982, 0.1285000000000000031 ) ) ;
#124 = CC_DESIGN_PERSON_AND_ORGANIZATION_ASSIGNMENT ( #290, #41, ( #47 ) ) ;
#125 = FACE_OUTER_BOUND ( 'NONE', #1, .T. ) ;
#126 = DIRECTION ( 'NONE',  ( 0.0000000000000000000, -0.0000000000000000000, 1.000000000000000000 ) ) ;
#127 = CIRCLE ( 'NONE', #303, 0.1875000000000000278 ) ;
#128 = FACE_OUTER_BOUND ( 'NONE', #143, .T. ) ;
#129 = CARTESIAN_POINT ( 'NONE',  ( 0.0000000000000000000, 1.864999999999999991, 0.0000000000000000000 ) ) ;
#130 = CIRCLE ( 'NONE', #293, 0.1875000000000000278 ) ;
#131 = EDGE_LOOP ( 'NONE', ( #227, #27 ) ) ;
#132 = ADVANCED_FACE ( 'NONE', ( #128 ), #244, .T. ) ;
#133 = DIRECTION ( 'NONE',  ( -0.0000000000000000000, -1.000000000000000000, -0.0000000000000000000 ) ) ;
#134 = FACE_OUTER_BOUND ( 'NONE', #139, .T. ) ;
#135 = CARTESIAN_POINT ( 'NONE',  ( 0.0000000000000000000, 1.864999999999999991, 0.0000000000000000000 ) ) ;
#136 = CARTESIAN_POINT ( 'NONE',  ( 0.0000000000000000000, 0.009999999999999620304, 0.0000000000000000000 ) ) ;
#137 = AXIS2_PLACEMENT_3D ( 'NONE', #352, #103, #213 ) ;
#138 = CC_DESIGN_SECURITY_CLASSIFICATION ( #204, ( #108 ) ) ;
#139 = EDGE_LOOP ( 'NONE', ( #313, #202, #305, #141 ) ) ;
#140 = VECTOR ( 'NONE', #80, 39.37007874015748143 ) ;
#141 = ORIENTED_EDGE ( 'NONE', *, *, #238, .F. ) ;
#142 = LENGTH_MEASURE_WITH_UNIT ( LENGTH_MEASURE( 0.02539999999999999897 ), #168 );
#143 = EDGE_LOOP ( 'NONE', ( #105, #104, #337, #285 ) ) ;
#144 = AXIS2_PLACEMENT_3D ( 'NONE', #350, #101, #209 ) ;
#145 = CARTESIAN_POINT ( 'NONE',  ( 0.0000000000000000000, 1.854999999999999982, 0.0000000000000000000 ) ) ;
#146 = APPLICATION_PROTOCOL_DEFINITION ( 'international standard', 'config_control_design', 1994, #236 ) ;
#147 = ADVANCED_FACE ( 'NONE', ( #328 ), #78, .F. ) ;
#148 = DATE_TIME_ROLE ( 'creation_date' ) ;
#149 = AXIS2_PLACEMENT_3D ( 'NONE', #154, #273, #24 ) ;
#150 = CALENDAR_DATE ( 2020, 3, 8 ) ;
#151 = DIRECTION ( 'NONE',  ( 0.0000000000000000000, 1.000000000000000000, 0.0000000000000000000 ) ) ;
#152 = LINE ( 'NONE', #269, #258 ) ;
#153 = LOCAL_TIME ( 9, 56, 34.00000000000000000, #235 ) ;
#154 = CARTESIAN_POINT ( 'NONE',  ( 0.0000000000000000000, 0.0000000000000000000, 0.0000000000000000000 ) ) ;
#155 = CIRCLE ( 'NONE', #245, 0.1285000000000000031 ) ;
#156 = FACE_BOUND ( 'NONE', #254, .T. ) ;
#157 = ADVANCED_FACE ( 'NONE', ( #156, #274 ), #26, .T. ) ;
#158 = VERTEX_POINT ( 'NONE', #188 ) ;
#159 = CIRCLE ( 'NONE', #12, 0.1285000000000000031 ) ;
#160 = FACE_OUTER_BOUND ( 'NONE', #61, .T. ) ;
#161 = APPLICATION_CONTEXT ( 'configuration controlled 3d designs of mechanical parts and assemblies' ) ;
#162 = CARTESIAN_POINT ( 'NONE',  ( 0.0000000000000000000, 1.864999999999999991, -0.1285000000000000031 ) ) ;
#163 = DIRECTION ( 'NONE',  ( 0.0000000000000000000, 1.000000000000000000, 0.0000000000000000000 ) ) ;
#164 = LINE ( 'NONE', #280, #178 ) ;
#165 = ORIENTED_EDGE ( 'NONE', *, *, #40, .T. ) ;
#166 = CIRCLE ( 'NONE', #17, 0.1875000000000000278 ) ;
#167 = EDGE_LOOP ( 'NONE', ( #223, #115, #52, #256 ) ) ;
#168 =( LENGTH_UNIT ( ) NAMED_UNIT ( * ) SI_UNIT ( $, .METRE. ) );
#169 = VERTEX_POINT ( 'NONE', #308 ) ;
#170 = ORIENTED_EDGE ( 'NONE', *, *, #49, .F. ) ;
#171 = EDGE_LOOP ( 'NONE', ( #259, #284, #221, #225 ) ) ;
#172 = ORGANIZATION ( 'UNSPECIFIED', 'UNSPECIFIED', '' ) ;
#173 = EDGE_CURVE ( 'NONE', #283, #169, #55, .T. ) ;
#174 = COORDINATED_UNIVERSAL_TIME_OFFSET ( 5, 0, .BEHIND. ) ;
#175 = DIMENSIONAL_EXPONENTS ( 1.000000000000000000, 0.0000000000000000000, 0.0000000000000000000, 0.0000000000000000000, 0.0000000000000000000, 0.0000000000000000000, 0.0000000000000000000 ) ;
#176 = PERSON_AND_ORGANIZATION ( #299, #172 ) ;
#177 = PERSON_AND_ORGANIZATION ( #299, #172 ) ;
#178 = VECTOR ( 'NONE', #32, 39.37007874015748143 ) ;
#179 = SHAPE_DEFINITION_REPRESENTATION ( #298, #231 ) ;
#180 = DIRECTION ( 'NONE',  ( 0.0000000000000000000, 0.0000000000000000000, 1.000000000000000000 ) ) ;
#181 = CARTESIAN_POINT ( 'NONE',  ( 0.0000000000000000000, 0.0000000000000000000, 0.0000000000000000000 ) ) ;
#182 = CARTESIAN_POINT ( 'NONE',  ( 0.0000000000000000000, 0.0000000000000000000, 0.0000000000000000000 ) ) ;
#183 = CIRCLE ( 'NONE', #233, 0.1285000000000000031 ) ;
#184 = DIRECTION ( 'NONE',  ( 8.659560562355043792E-17, 0.7071067811865384689, -0.7071067811865565655 ) ) ;
#185 = CARTESIAN_POINT ( 'NONE',  ( 0.0000000000000000000, 1.864999999999999991, 0.0000000000000000000 ) ) ;
#186 = EDGE_LOOP ( 'NONE', ( #170, #330, #60, #340 ) ) ;
#187 = CARTESIAN_POINT ( 'NONE',  ( 0.0000000000000000000, 0.0000000000000000000, 0.0000000000000000000 ) ) ;
#188 = CARTESIAN_POINT ( 'NONE',  ( 1.573671136904349084E-17, 0.009999999999999620304, 0.1285000000000000031 ) ) ;
#189 = CONICAL_SURFACE ( 'NONE', #38, 0.1384999999999996512, 0.7853981633974491672 ) ;
#190 = CARTESIAN_POINT ( 'NONE',  ( 1.696135816819079820E-17, 0.0000000000000000000, 0.1384999999999996512 ) ) ;
#191 = LINE ( 'NONE', #310, #53 ) ;
#192 = DIRECTION ( 'NONE',  ( 0.0000000000000000000, 1.000000000000000000, 0.0000000000000000000 ) ) ;
#193 = CARTESIAN_POINT ( 'NONE',  ( 0.0000000000000000000, 1.864999999999999991, 0.0000000000000000000 ) ) ;
#194 = EDGE_LOOP ( 'NONE', ( #10, #37 ) ) ;
#195 = CIRCLE ( 'NONE', #149, 0.1875000000000000278 ) ;
#196 = CC_DESIGN_PERSON_AND_ORGANIZATION_ASSIGNMENT ( #177, #294, ( #204 ) ) ;
#197 = DIRECTION ( 'NONE',  ( 0.0000000000000000000, 0.0000000000000000000, -1.000000000000000000 ) ) ;
#198 = PRODUCT_DEFINITION ( 'UNKNOWN', '', #108, #234 ) ;
#199 = VERTEX_POINT ( 'NONE', #30 ) ;
#200 = EDGE_LOOP ( 'NONE', ( #315, #214, #90, #13 ) ) ;
#201 =( NAMED_UNIT ( * ) SI_UNIT ( $, .STERADIAN. ) SOLID_ANGLE_UNIT ( ) );
#202 = ORIENTED_EDGE ( 'NONE', *, *, #111, .T. ) ;
#203 = MECHANICAL_CONTEXT ( 'NONE', #161, 'mechanical' ) ;
#204 = SECURITY_CLASSIFICATION ( '', '', #69 ) ;
#205 = APPROVAL_DATE_TIME ( #96, #271 ) ;
#206 = APPROVAL_DATE_TIME ( #97, #260 ) ;
#207 = CALENDAR_DATE ( 2020, 3, 8 ) ;
#208 = CARTESIAN_POINT ( 'NONE',  ( 0.0000000000000000000, 0.0000000000000000000, 0.0000000000000000000 ) ) ;
#209 = DIRECTION ( 'NONE',  ( 0.0000000000000000000, 0.0000000000000000000, -1.000000000000000000 ) ) ;
#210 = DIRECTION ( 'NONE',  ( 0.0000000000000000000, 0.0000000000000000000, 1.000000000000000000 ) ) ;
#211 = ADVANCED_FACE ( 'NONE', ( #134 ), #312, .F. ) ;
#212 = AXIS2_PLACEMENT_3D ( 'NONE', #193, #73, #180 ) ;
#213 = DIRECTION ( 'NONE',  ( 0.0000000000000000000, 0.0000000000000000000, -1.000000000000000000 ) ) ;
#214 = ORIENTED_EDGE ( 'NONE', *, *, #11, .T. ) ;
#215 = DIRECTION ( 'NONE',  ( -0.0000000000000000000, -1.000000000000000000, -0.0000000000000000000 ) ) ;
#216 = CARTESIAN_POINT ( 'NONE',  ( 0.0000000000000000000, 0.0000000000000000000, 0.0000000000000000000 ) ) ;
#217 = LOCAL_TIME ( 9, 56, 34.00000000000000000, #232 ) ;
#218 = FACE_OUTER_BOUND ( 'NONE', #194, .T. ) ;
#219 = LINE ( 'NONE', #336, #33 ) ;
#220 = VECTOR ( 'NONE', #309, 39.37007874015748143 ) ;
#221 = ORIENTED_EDGE ( 'NONE', *, *, #311, .F. ) ;
#222 = EDGE_CURVE ( 'NONE', #62, #113, #130, .T. ) ;
#223 = ORIENTED_EDGE ( 'NONE', *, *, #111, .F. ) ;
#224 = AXIS2_PLACEMENT_3D ( 'NONE', #351, #102, #210 ) ;
#225 = ORIENTED_EDGE ( 'NONE', *, *, #321, .F. ) ;
#226 =( NAMED_UNIT ( * ) PLANE_ANGLE_UNIT ( ) SI_UNIT ( $, .RADIAN. ) );
#227 = ORIENTED_EDGE ( 'NONE', *, *, #311, .T. ) ;
#228 = CARTESIAN_POINT ( 'NONE',  ( 0.0000000000000000000, 0.0000000000000000000, 0.0000000000000000000 ) ) ;
#229 = EDGE_CURVE ( 'NONE', #87, #113, #191, .T. ) ;
#230 = LINE ( 'NONE', #343, #140 ) ;
#231 = ADVANCED_BREP_SHAPE_REPRESENTATION ( 'am-1571 0.375 OD x 0.257 ID x 1.865 Long Aluminum Spacer for Box Tube', ( #241, #333 ), #288 ) ;
#232 = COORDINATED_UNIVERSAL_TIME_OFFSET ( 5, 0, .BEHIND. ) ;
#233 = AXIS2_PLACEMENT_3D ( 'NONE', #136, #252, #7 ) ;
#234 = DESIGN_CONTEXT ( 'detailed design', #236, 'design' ) ;
#235 = COORDINATED_UNIVERSAL_TIME_OFFSET ( 5, 0, .BEHIND. ) ;
#236 = APPLICATION_CONTEXT ( 'configuration controlled 3d designs of mechanical parts and assemblies' ) ;
#237 = APPROVAL_STATUS ( 'not_yet_approved' ) ;
#238 = EDGE_CURVE ( 'NONE', #286, #114, #164, .T. ) ;
#239 = DIRECTION ( 'NONE',  ( 0.0000000000000000000, 1.000000000000000000, 0.0000000000000000000 ) ) ;
#240 = CYLINDRICAL_SURFACE ( 'NONE', #144, 0.1875000000000000278 ) ;
#241 = MANIFOLD_SOLID_BREP ( 'Chamfer2', #66 ) ;
#242 = CARTESIAN_POINT ( 'NONE',  ( 2.296212748401287726E-17, 1.864999999999999991, 0.1875000000000000278 ) ) ;
#243 = EDGE_CURVE ( 'NONE', #158, #169, #183, .T. ) ;
#244 = CYLINDRICAL_SURFACE ( 'NONE', #137, 0.1875000000000000278 ) ;
#245 = AXIS2_PLACEMENT_3D ( 'NONE', #56, #163, #279 ) ;
#246 = DIRECTION ( 'NONE',  ( 0.0000000000000000000, 1.000000000000000000, 0.0000000000000000000 ) ) ;
#247 = VERTEX_POINT ( 'NONE', #110 ) ;
#248 = DIRECTION ( 'NONE',  ( 0.0000000000000000000, 0.0000000000000000000, -1.000000000000000000 ) ) ;
#249 = CARTESIAN_POINT ( 'NONE',  ( 0.0000000000000000000, 1.854999999999999982, 0.0000000000000000000 ) ) ;
#250 = DIRECTION ( 'NONE',  ( 0.0000000000000000000, 1.000000000000000000, 0.0000000000000000000 ) ) ;
#251 = AXIS2_PLACEMENT_3D ( 'NONE', #185, #304, #51 ) ;
#252 = DIRECTION ( 'NONE',  ( -0.0000000000000000000, -1.000000000000000000, -0.0000000000000000000 ) ) ;
#253 = APPROVAL_PERSON_ORGANIZATION ( #122, #329, #348 ) ;
#254 = EDGE_LOOP ( 'NONE', ( #63, #275 ) ) ;
#255 = EDGE_CURVE ( 'NONE', #199, #62, #219, .T. ) ;
#256 = ORIENTED_EDGE ( 'NONE', *, *, #98, .F. ) ;
#257 =( CONVERSION_BASED_UNIT ( 'INCH', #142 ) LENGTH_UNIT ( ) NAMED_UNIT ( #175 ) );
#258 = VECTOR ( 'NONE', #22, 39.37007874015748143 ) ;
#259 = ORIENTED_EDGE ( 'NONE', *, *, #243, .F. ) ;
#260 = APPROVAL ( #18, 'UNSPECIFIED' ) ;
#261 = CARTESIAN_POINT ( 'NONE',  ( 0.0000000000000000000, 1.864999999999999991, 0.0000000000000000000 ) ) ;
#262 = PERSON_AND_ORGANIZATION ( #299, #172 ) ;
#263 = PERSON_AND_ORGANIZATION ( #299, #172 ) ;
#264 = CONICAL_SURFACE ( 'NONE', #71, 0.1285000000000000031, 0.7853981633974611576 ) ;
#265 = CC_DESIGN_DATE_AND_TIME_ASSIGNMENT ( #267, #19, ( #204 ) ) ;
#266 = EDGE_CURVE ( 'NONE', #114, #247, #77, .T. ) ;
#267 = DATE_AND_TIME ( #150, #48 ) ;
#268 = DIRECTION ( 'NONE',  ( 0.0000000000000000000, 0.0000000000000000000, 1.000000000000000000 ) ) ;
#269 = CARTESIAN_POINT ( 'NONE',  ( 0.0000000000000000000, 0.0000000000000000000, -0.1384999999999996512 ) ) ;
#270 = LOCAL_TIME ( 9, 56, 34.00000000000000000, #174 ) ;
#271 = APPROVAL ( #16, 'UNSPECIFIED' ) ;
#272 = CIRCLE ( 'NONE', #318, 0.1285000000000000031 ) ;
#273 = DIRECTION ( 'NONE',  ( 0.0000000000000000000, 1.000000000000000000, 0.0000000000000000000 ) ) ;
#274 = FACE_OUTER_BOUND ( 'NONE', #92, .T. ) ;
#275 = ORIENTED_EDGE ( 'NONE', *, *, #98, .T. ) ;
#276 = AXIS2_PLACEMENT_3D ( 'NONE', #181, #297, #46 ) ;
#277 = CYLINDRICAL_SURFACE ( 'NONE', #8, 0.1285000000000000031 ) ;
#278 = DIRECTION ( 'NONE',  ( -0.0000000000000000000, -1.000000000000000000, -0.0000000000000000000 ) ) ;
#279 = DIRECTION ( 'NONE',  ( 0.0000000000000000000, 0.0000000000000000000, 1.000000000000000000 ) ) ;
#280 = CARTESIAN_POINT ( 'NONE',  ( 0.0000000000000000000, 1.854999999999999982, 0.1285000000000000031 ) ) ;
#281 = ADVANCED_FACE ( 'NONE', ( #295 ), #264, .F. ) ;
#282 = CONICAL_SURFACE ( 'NONE', #118, 0.1384999999999996512, 0.7853981633974491672 ) ;
#283 = VERTEX_POINT ( 'NONE', #20 ) ;
#284 = ORIENTED_EDGE ( 'NONE', *, *, #49, .T. ) ;
#285 = ORIENTED_EDGE ( 'NONE', *, *, #255, .F. ) ;
#286 = VERTEX_POINT ( 'NONE', #123 ) ;
#287 = APPLICATION_PROTOCOL_DEFINITION ( 'international standard', 'config_control_design', 1994, #161 ) ;
#288 =( GEOMETRIC_REPRESENTATION_CONTEXT ( 3 ) GLOBAL_UNCERTAINTY_ASSIGNED_CONTEXT ( ( #320 ) ) GLOBAL_UNIT_ASSIGNED_CONTEXT ( ( #257, #226, #201 ) ) REPRESENTATION_CONTEXT ( 'NONE', 'WORKASPACE' ) );
#289 = ORIENTED_EDGE ( 'NONE', *, *, #222, .T. ) ;
#290 = PERSON_AND_ORGANIZATION ( #299, #172 ) ;
#291 = CALENDAR_DATE ( 2020, 3, 8 ) ;
#292 = EDGE_CURVE ( 'NONE', #283, #286, #159, .T. ) ;
#293 = AXIS2_PLACEMENT_3D ( 'NONE', #216, #334, #83 ) ;
#294 = PERSON_AND_ORGANIZATION_ROLE ( 'classification_officer' ) ;
#295 = FACE_OUTER_BOUND ( 'NONE', #167, .T. ) ;
#296 = CC_DESIGN_PERSON_AND_ORGANIZATION_ASSIGNMENT ( #319, #67, ( #198 ) ) ;
#297 = DIRECTION ( 'NONE',  ( 0.0000000000000000000, 1.000000000000000000, 0.0000000000000000000 ) ) ;
#298 = PRODUCT_DEFINITION_SHAPE ( 'NONE', 'NONE',  #198 ) ;
#299 = PERSON ( 'UNSPECIFIED', 'UNSPECIFIED', 'UNSPECIFIED', ('UNSPECIFIED'), ('UNSPECIFIED'), ('UNSPECIFIED') ) ;
#300 = CIRCLE ( 'NONE', #276, 0.1384999999999996512 ) ;
#301 = CC_DESIGN_APPROVAL ( #329, ( #204 ) ) ;
#302 = CARTESIAN_POINT ( 'NONE',  ( 2.296212748401287726E-17, 0.0000000000000000000, 0.1875000000000000278 ) ) ;
#303 = AXIS2_PLACEMENT_3D ( 'NONE', #261, #14, #116 ) ;
#304 = DIRECTION ( 'NONE',  ( -0.0000000000000000000, -1.000000000000000000, -0.0000000000000000000 ) ) ;
#305 = ORIENTED_EDGE ( 'NONE', *, *, #266, .F. ) ;
#306 = ADVANCED_FACE ( 'NONE', ( #100 ), #282, .F. ) ;
#307 = DIRECTION ( 'NONE',  ( 0.0000000000000000000, 1.000000000000000000, 0.0000000000000000000 ) ) ;
#308 = CARTESIAN_POINT ( 'NONE',  ( 0.0000000000000000000, 0.009999999999999620304, -0.1285000000000000031 ) ) ;
#309 = DIRECTION ( 'NONE',  ( 8.659560562354940254E-17, -0.7071067811865469066, 0.7071067811865481278 ) ) ;
#310 = CARTESIAN_POINT ( 'NONE',  ( 2.296212748401287726E-17, 1.864999999999999991, 0.1875000000000000278 ) ) ;
#311 = EDGE_CURVE ( 'NONE', #341, #39, #300, .T. ) ;
#312 = CONICAL_SURFACE ( 'NONE', #43, 0.1285000000000000031, 0.7853981633974611576 ) ;
#313 = ORIENTED_EDGE ( 'NONE', *, *, #292, .F. ) ;
#314 = ORIENTED_EDGE ( 'NONE', *, *, #59, .T. ) ;
#315 = ORIENTED_EDGE ( 'NONE', *, *, #292, .T. ) ;
#316 = ORIENTED_EDGE ( 'NONE', *, *, #173, .T. ) ;
#317 = APPROVAL_PERSON_ORGANIZATION ( #263, #260, #120 ) ;
#318 = AXIS2_PLACEMENT_3D ( 'NONE', #106, #215, #332 ) ;
#319 = PERSON_AND_ORGANIZATION ( #299, #172 ) ;
#320 = UNCERTAINTY_MEASURE_WITH_UNIT (LENGTH_MEASURE( 1.000000000000000082E-05 ), #257, 'distance_accuracy_value', 'NONE');
#321 = EDGE_CURVE ( 'NONE', #169, #341, #152, .T. ) ;
#322 = PERSON_AND_ORGANIZATION ( #299, #172 ) ;
#323 = PERSON_AND_ORGANIZATION_ROLE ( 'design_supplier' ) ;
#324 = DATE_AND_TIME ( #207, #95 ) ;
#325 = DIRECTION ( 'NONE',  ( -0.0000000000000000000, -1.000000000000000000, -0.0000000000000000000 ) ) ;
#326 = CARTESIAN_POINT ( 'NONE',  ( 0.0000000000000000000, 0.0000000000000000000, -0.1384999999999996512 ) ) ;
#327 = LINE ( 'NONE', #76, #338 ) ;
#328 = FACE_OUTER_BOUND ( 'NONE', #200, .T. ) ;
#329 = APPROVAL ( #237, 'UNSPECIFIED' ) ;
#330 = ORIENTED_EDGE ( 'NONE', *, *, #40, .F. ) ;
#331 = ADVANCED_FACE ( 'NONE', ( #125 ), #240, .T. ) ;
#332 = DIRECTION ( 'NONE',  ( 0.0000000000000000000, 0.0000000000000000000, 1.000000000000000000 ) ) ;
#333 = AXIS2_PLACEMENT_3D ( 'NONE', #228, #342, #93 ) ;
#334 = DIRECTION ( 'NONE',  ( 0.0000000000000000000, 1.000000000000000000, 0.0000000000000000000 ) ) ;
#335 = PLANE ( 'NONE',  #58 ) ;
#336 = CARTESIAN_POINT ( 'NONE',  ( 0.0000000000000000000, 1.864999999999999991, -0.1875000000000000278 ) ) ;
#337 = ORIENTED_EDGE ( 'NONE', *, *, #121, .T. ) ;
#338 = VECTOR ( 'NONE', #184, 39.37007874015748143 ) ;
#339 = ORIENTED_EDGE ( 'NONE', *, *, #70, .T. ) ;
#340 = ORIENTED_EDGE ( 'NONE', *, *, #15, .F. ) ;
#341 = VERTEX_POINT ( 'NONE', #326 ) ;
#342 = DIRECTION ( 'NONE',  ( 0.0000000000000000000, 0.0000000000000000000, 1.000000000000000000 ) ) ;
#343 = CARTESIAN_POINT ( 'NONE',  ( 1.573671136904349084E-17, 1.864999999999999991, 0.1285000000000000031 ) ) ;
#344 = CC_DESIGN_PERSON_AND_ORGANIZATION_ASSIGNMENT ( #322, #68, ( #108 ) ) ;
#345 = CALENDAR_DATE ( 2020, 3, 8 ) ;
#346 = ADVANCED_FACE ( 'NONE', ( #75 ), #189, .F. ) ;
#347 = CALENDAR_DATE ( 2020, 3, 8 ) ;
#348 = APPROVAL_ROLE ( '' ) ;
#349 = DIRECTION ( 'NONE',  ( 0.0000000000000000000, 0.0000000000000000000, 1.000000000000000000 ) ) ;
#350 = CARTESIAN_POINT ( 'NONE',  ( 0.0000000000000000000, 1.864999999999999991, 0.0000000000000000000 ) ) ;
#351 = CARTESIAN_POINT ( 'NONE',  ( 0.0000000000000000000, 1.864999999999999991, 0.0000000000000000000 ) ) ;
#352 = CARTESIAN_POINT ( 'NONE',  ( 0.0000000000000000000, 1.864999999999999991, 0.0000000000000000000 ) ) ;
ENDSEC;
END-ISO-10303-21;
